Steel Guitar Strings
Strings & instruction for lap steel, Hawaiian & pedal steel guitars
http://SteelGuitarShopper.com
Ray Price Shuffles
Classic country shuffle styles for Band-in-a-Box, by BIAB guru Jim Baron.
http://steelguitarmusic.com

This Forum is CLOSED.
Go to bb.steelguitarforum.com to read and post new messages.


  The Steel Guitar Forum
  Tablature
  Begin the Beguine (C6th acoustic lap steel)

Post New Topic  
your profile | join | preferences | help | search

next newest topic | next oldest topic
Author Topic:   Begin the Beguine (C6th acoustic lap steel)
Andy Volk
Member

From: Boston, MA

posted 23 July 2001 03:56 AM     profile     
Here's my arrangement of Begin the Beguine. I play it on my Weissenborn in A6th (tuned down from C6th). It's my somewhat improvisational take on the tune as it doesn't exactly follow the melody. Also - this is just the skeleton of the tune with out the complexities. If you want a sound file for this arrangment, send me an e-mail.

Begin the Beguine
C6th Tuning: High to low: ECAGEC


Intro Cmai9 Fmai7
E---| |-----|-----------0--------------|-------0--------|
C---| |-----|--------2-----2-----------|----------0-----|
A---| |*----|-----2-----------2-----2--|----0--------0--|
G---| |*----|--------------------------|----------------|
E---| |-----|--------------------0-----|----------------|
C---| |-----|--0-----------------------|-5--------------|

Cmai9 Fmai7
E------------0--------------|-------------0--------|
C---------2-----2-----------|----------------0-----|
A------2-----------2-----2--|----------0--------0--|
G---------------------------|----------------------|
E---------------------0-----|----------------------|
C---0-----------------------|-------5--------------|

Cmai9 Fmai7
E------------0--------------|-------0-----------|
C---------2-----2-----------|----------0--------|
A------2-----------2-----2--|----0--------0-----|
G---------------------------|-------------------|
E---------------------0-----|-------------------|
C---0-----------------------|-5-----------------|

(strum & let ring) C
E---0-----------------------------|-------------0----3--|
C---2-----------------------------|-----0--0--2---------|
A---2-----------------------------|---------------------|
G---0-----------------------------|---------------------|
E---0-----------------------------|-------------------0-|
C---0-----------------------------|-----0---------------|

C6 Cmai7
E---------0--0--------|-----------0--------|
C---------------2--0--|--------------------|
A---------------------|--------------------|
G---------------------|--------------------|
E---------0--0--------|-----------0--------|
C---------------------|--------------------|

C6 C
E------------------------|--------0-------5--5--5--5--5-----|
C---------------0--------|--0--2----------------------------|
A---------0--2-----2--0--|----------------0-----------------|
G------------------------|----------------------------------|
E------------------------|----------------------------------|
C------------------------|----------------------------------|

C6 Dm7
E---------3---1---0----------|-----------------------------|
C----------------------------|--------5--------5-----5-----|
A----------------------------|--------5--------5-----5-----|
G----------------------------|-----------------------------|
E----------------------------|-----------5-----------------|
C----------------------------|-----------------------------|

G9 Dm7 G9
E---------------|----------------8----|---7--5-----7---|
C---------------|-------------5-------|--------7-------|
A---------------|--------5-7-----0----|----------------|
G---------7-----|---------------------|----------------|
E---------7-----|---------------------|----------------|
C---------------|---------------------|----------------|

Dm7 G9
E--------------------|--------------|
C--------------------|--------------|
A------5--5--5---5---|--------------|
G------5--5--5---5---|--------7-----|
E------5--5--5---5---|--------7-----|
C--------------------|--------------|

Dm7 G9
E--------------------------|--------------------------------|
C-----------5--7--7--7--7--|------5-5--4--2-----------------|
A------5-7-----7--7--7--7--|------5-------------------------|
G--------------7--7--7--7--|--------------------------------|
E--------------------------|--------------------------------|
C--------------------------|--------------------------------|

Cmai7 C6
E------------0-----------------------|--------------|
C---------------------0--------0-----|--------------|
A---------------0--2-----2--0--------|--------------|
G------------------------------------|--------------|
E------------------------------------|--------------|
C------------0-----------------------|--------------|

C C6 Cmai7
E---------------0-3-|--------0--0--------|-----------0--------|
C------0--0--2------|--------------2--0--|--------------------|
A-------------------|--------------------|--------------------|
G-------------------|--------------------|--------------------|
E-----------------0-|--------0--0--------|-----------0--------|
C------0------------|--------------------|--------------------|


C6 C
E------------------------|--------------0-----|
C---------------0--------|-----0--0--2--------|
A---------0--2-----2--0--|--------------------|
G------------------------|--------------------|
E------------------------|--------------------|
C------------------------|--------------------|

C6 Dm7 G9
E-----------7-----5-5-3-1------|--------------|-----------|
C------------------------------|--------5-----|-----------|
A------------------------------|--------5-----|-----------|
G------------------------------|--------5-----|--------7--|
E------------------------------|--------------|--------7--|
C------------------------------|--------------|-----------|

Dm7
E---------------7--------------|
C-------------7----------------|
A--------6--7------------------|
G------------------------------|
E------------------------------|
C------------------------------|

G9
E-----------5----------3-------------------|
C-------6--------4-------------------------|
A------------------------------------------|
G------------------------------------------|
E------------------------------------------|
C------------------------------------------|

Dm7
E------------------------------------------------------|
C---------------5-----5-----5-----5--------------------|
A---------------5-----5-----5-----5--------------------|
G---------------5-----5-----5-----5--------------------|
E------------------------------------------------------|
C------------------------------------------------------|

G9
E------------------------------------------------|
C------------------------------------------------|
A------------------------------------------------|
G------------7-----7-----7-----7-----------------|
E------------7-----7-----7-----7-----------------|
C------------------------------------------------|


Dm7
E---------------------------------------------|
C------------5-----5-----5-----5--------------|
A------------5-----5-----5-----5--------------|
G------------5-----5-----5-----5--------------|
E---------------------------------------------|
C---------------------------------------------|

G9
E---------------------------------------------|
C---------------------------------------------|
A---------------------------------------------|
G------------7-----7-----7-----7--------------|
E------------7-----7-----7-----7--------------|
C---------------------------------------------|

Cmai6/9
E---------------------------------------------|
C---------0-----------0--------0--------------|
A---------0-----0--2-----2--0-----------------|
G---------------------------------------------|
E---------------------------------------------|
C---------0-----------------------------------|

Cmai7 Cm7
E---------------------| |----------------3--------|
C---------------------| |-------------3--3--------|
A---------------------| |--------3-5-----3--------|
G---------------------| |-------------------------|
E---------------------| |-------------------------|
C---------------------| |-------------------------|

F7 Bb6
E---------5-5-3------------------|-------------------|
C-----------------5--------------|--------10---------|
A--------------------------------|--------10---------|
G--------------------------------|--------10--10-----|
E--------------------------------|--------10--10-----|
C--------------------------------|-------------------|

Bb6 Bbm7
E------------------------|----------------1--------------------|
C------------------------|-------------1--1--------------------|
A------------------------|--------1--3----1--------------------|
G------------------------|-------------------------------------|
E------------------------|-------------------------------------|
C------------------------|-------------------------------------|

Eb7 Abmai7
E---------3-3-1---------|-----------------8--|
C-----------------3-----|-----------------8--|
A-----------------------|-----------------8--|
G-----------------------|-----------------8--|
E-----------------------|--------------------|
C-----------------------|--------------------|

Ab6 Am7b5
E---------------------|--------8--10--11-----|
C---------------------|--------8--10---------|
A---------------------|----------------------|
G---------------------|--------8--10---------|
E---------------------|---------------11-----|
C---------------------|----------------------|

D7 Gmai7
E---------11--11--10--8-----|-----------10---7--|
C-----------------10--8-----|-------------------|
A---------------------------|-------------------|
G-----------------10--8-----|-------------------|
E---------11--11------------|-----------10---7--|
C---------------------------|-------------------|


Ab6 G6
E---------8--8-----8-----8-----|-----------7-----------|
C---------8--8-----8-----8-----|-----------7--7--------|
A------------------------------|--------------7--------|
G---------8--8-----8-----8-----|-----------7-----------|
E------------------------------|--------------7--------|
C------------------------------|-----------------------|

Ab6
E------------------------------------|
C---------8-----8-----8-----8--------|
A------------------------------------|
G---------8-----8-----8-----8--------|
E---------8-----8-----8-----8--------|
C------------------------------------|


G7 C
E---------10-9-8-7-----------------------|--------------0-3-|
C-------------------7--------------------|-----0--0--2------|
A----------------------8-7---------------|------------------|
G---------------------------7------------|------------------|
E------------------------------7---------|----------------0-|
C---------------------------------7-6-5--|-----0------------|

C6 Cmai7
E---------0--0--------|-----------0--------|
C---------------2--0--|--------------------|
A---------------------|--------------------|
G---------------------|--------------------|
E---------0--0--------|-----------0--------|
C---------------------|--------------------|

C6 C
E---------------C--------|--------------0-----|
C---------------0--------|-----0--2-----------|
A---------0--2-----2--0--|--------------------|
G------------------------|--------------------|
E------------------------|--------------------|
C------------------------|--------------------|

C6 Dm7
E---------------6--3-3----1--0-----|-----------------------|
C------7--9--7---------------------|--------5--------------|
A------7--9--7---------------------|--------5--------------|
G------------------0-0-------------|-----------------------|
E----------------------------------|-----------------------|
C----------------------------------|-----------------------|

G9 Dm7
E---------------------|-------------5--9--------------|
C---------------------|----------5--------9-----------|
A---------------------|-----2-5--------------8--------|
G---------7-----------|-------------------------7-----|
E---------7-----------|-------------------------------|
C---------------------|-------------------------------|

G9 Dm7 G9
E---------------|-----------------------------|--------------|
C---------7-----|--------5-----5-----5-----5--|--------------|
A---------------|--------5-----5-----5-----5--|--------7-----|
G---------------|--------5-----5-----5-----5--|--------7-----|
E---------------|-----------------------------|--------7-----|
C---------------|-----------------------------|--------------|

Dm7 G9
E---------------------------|-------------------------|
C---------7--7-----7-----7--|--------5---4---2-----0--|
A---------7--7-----7-----7--|--------5---3---1-----0--|
G---------------------------|-------------------------|
E---------------------------|-------------------------|-
C---------------------------|-------------------------|

Cmai7 C6
E---------------------|-----------------|
C---------0--0--0--0--|-----------------|
A---------0--0--0--0--|--------0--2--0--|
G---------0--0--0--0--|-----------------|
E---------0--0--0--0--|-----------------|
C------0--------------|-----0-----------|

Cmai7 C6
E------------------12--12--12--12--|-----13---12--------------|
C---------11---14--12--12--12--12--|-----14---12--14---12-----|
A---------12---14--12--12--12--12--|--------------14---12-----|
G------------------12--12--12--12--|--------------------------|
E----------------------------------|--------------------------|
C----------------------------------|--------------------------|

Cmai7
E------------12---------|
C------------12--12-----|
A------------12--12-----|
G------------12--12-----|
E----------------12-----|
C-----------------------|

C6
-------------------12--12--12--12--------|
C---------12---14--12--12--12--12--------|
A---------12---14--12--12--12--12--------|
G------------------12--12--12--12--------|
E----------------------------------------|
C----------------------------------------|

Cmai7 Dm7
E---------13---12------------------|----------------------|
C---------14---12--14-12-----------|-----11-----7---------|
A------------------14-12-----------|-----10-----7---------|
G----------------------------------|----------------------|
E----------------------------------|----------------------|
C----------------------------------|----------------------|

G9 Am7b5
E---------------|------------------5---------------------|
C---------------|-----------7---9--5--12-----12--12--12--|
A---------------|-----------7---9-----12-----12--12--12--|
G---------------|----------------------------------------|
E---------------|---------------------12-----12--12--12--|
C---------------|----------------------------------------|

D7 Gmai7
E-----------------------|-----------------|
C------11---12-11-9-----|-----------7-----|
A------13---12-10-9-----|-----------7--7--|
G-----------------------|-----------7--7--|
E-----------------------|-----------7-----|
C-----------------------|-----------------|

Dm7 G9
E--------------------------------|-----------|
C--------------5--7--7--7--7-----|-----5-----|
A------5-7--------7--7--7--7-----|-----5-----|
G-----------------7--7--7--7-----|-----5-----|
E--------------------------------|-----------|
C--------------------------------|-----------|

Dm7 G9
E------------------------------|-----------------|
C---------7--7--7--7-----------|--------5--------|
A---------7--7--7--7-----------|--------5--------|
G---------7--7--7--7-----------|--------5--------|
E------------------------------|-----------------|
C------------------------------|-----------------|

Dm7 G9
E------------------------------|-----------------|
C---------7--7--7--7-----------|-----5-----------|
A---------7--7--7--7-----------|-----5-----------|
G---------7--7--7--7-----------|-----5-----------|
E------------------------------|-----------------|
C------------------------------|-----------------|

Cmai7 C6
E-------------------------------------|--------------|
C---------4---2--0-----------2--0-----|-----0--------|
A-------------------0--2--0-----------|--------------|
G-------------------------------------|--------------|
E---------0---------------------------|--------------|
C-------------------------------------|--------------|


Cmai9 Fmai7
E------------0--------------|-------0--------|
C---------2-----2-----------|----------0-----|
A------2-----------2-----2--|----0--------0--|
G---------------------------|----------------|
E---------------------0-----|----------------|
C---0-----------------------|-5--------------|

Cmai9 Fmai7
E------------0--------------|-------------0--------|
C---------2-----2-----------|----------------0-----|
A------2-----------2-----2--|----------0--------0--|
G---------------------------|----------------------|
E---------------------0-----|----------------------|
C---0-----------------------|-------5--------------|

Cmai9 Fmai7
E------------0--------------|-------0-----------|
C---------2-----2-----------|----------0--------|
A------2-----------2-----2--|----0--------0-----|
G---------------------------|-------------------|
E---------------------0-----|-------------------|
C---0-----------------------|-5-----------------|

Cmai7 (* Palm Harmonics)

* --------------
E---------------------------7--| |
C------------------------7-----| |
A---------------------7--------| |
G------------------7-----------| |
E---------------7--------------| |
C------------0-----------------| |


[This message was edited by Andy Volk on 23 July 2001 at 01:11 PM.]

Fernando Fernandez
Member

From: Cadiz,Spain

posted 24 July 2001 03:17 AM     profile     
Good job Andy.Thanks

All times are Pacific (US)

next newest topic | next oldest topic

Administrative Options: Close Topic | Archive/Move | Delete Topic
Post New Topic  
Hop to:

Contact Us | Catalog of Pedal Steel Music Products

Note: Messages not explicitly copyrighted are in the Public Domain.


Ultimate Bulletin Board 5.46

For lots more steel guitar tab, visit
Rebel�, Ricky and Jeff's MP3 Audio Clips And Tab