Steel Guitar Strings
Strings & instruction for lap steel, Hawaiian & pedal steel guitars
http://SteelGuitarShopper.com
Ray Price Shuffles
Classic country shuffle styles for Band-in-a-Box, by BIAB guru Jim Baron.
http://steelguitarmusic.com

This Forum is CLOSED.
Go to bb.steelguitarforum.com to read and post new messages.


  The Steel Guitar Forum
  Tablature
  Steel Guitar Rag - C6 non pedal

Post New Topic  
your profile | join | preferences | help | search

next newest topic | next oldest topic
Author Topic:   Steel Guitar Rag - C6 non pedal
Jesse Pearson
Member

From: San Diego , CA

posted 07 January 2004 09:36 PM     profile     
#-----------------------------PLEASE NOTE-----------------------------#
This file is the author's own work and represents their interpretation of the song. You may only use this file for private study, scholarship, or research. Remember to view this file in Courier, or some other monospaced font. www.jessepearsonguitar.com
#---------------------------------------------------------------------#
Steel Guitar Rag Ė C6 tuning

**The ď minor 3rd and 1/2 Ē (-3.5) is the real blues 3rd, found Ĺ way between the Minor 3rd and Major 3rd (G and G#). Besides this being one of the all time classic steel songs, itís a great way to practice nailing that blues 3rd in your line. This version was a very early Bob Wills version with a young Leon McAuliffe on Open E Dobro. You can Harmonize the lead line (note for note Leon) any way you want. Donít forget to put slides in between the notes. The :B: section has a fast triplet played 5 times in a row over the B7, itís tricky hick timing. The phrasing/glisses of this song requires you to hear the original Bob Wills/Leon McAuliffe version if you want to get close to Leonís feel, thatís what the tab is based on. I left the bar lines out because they were messing up the notes on the final product with the way it was ending up lookin, I forgot to write em down in the first place. The chords line up in the right places with the notes. Each section is 8 measures in 4/4 or 16 measures in 2/4.

[A]

E B7 E
E-----------|-2--3.5-----------2--3.5-----------2--3.5--2------------------------
C----------4|----------------4---------------4-----------4---------------4-------
A----2-2-4--|---------2-2-4------------2-2-4--------------4------------4---------
G-----------|----------------------------------------------4---------4-----------
E-----------|-----------------------------------------------4------4-------------
C-----------|------------------------------------------------4-------------------


A7 E B7 E
E----------2-4---6-7---3-3-2-----------2--3.5---2-----------------| |
C--------4-------------------4--------4----------4--------------4-| |
A--2-2-4------------------------2-2-4-------------4-----------4---| |
G--------------------------------------------------4--------4-----| |
E---------------------------------------------------4-----4-------| |
C----------------------------------------------------4------------| |


[B]

E A7 E F# B7
E-------------------5-4-3----------------------------------------------------------
C--7-8-9--4----4----------4---4---4-------6-------6-------------11------11-----11--
A--7-8-9--4--4-------------4-------------------------------------------------------
G---------------------------4---4-----------6-------6---------11-----11------11----
E--7-8-9--4--4------------------------5-6-----6-------6----11------11------11------
C------------4---------------------------------------------------------------------


A7 E F# B7 E
E-------------------------------5-4-3--------------------------------------------| |
C------11-----11---9---4----4---------4---4--4-------6-----------11----------16--| |
A------------------9---4--4------------4-----------------------------------------| |
G---11-----11---------------------------4---4----------6------------11--11---16--| |
E-11-----11--------9---4--4----------------------5-6-----6------------11-----16--| |
C-------------------------4------------------------------------------------------| |


[C]

E
E------------------------------------------------------------------------------
C--------16-------16--------------16----------16--------16-----------16--------
A------------------------------------------------------------------------------
G-----------16-------16--------------16----16--------------16----16-----16-----
E--15-16-------16-------16--15-16-------16--------15-16-------16-----------16--
C------------------------------------------------------------------------------


B7 E A7 E B7 E
E-----------------------------------------------------------------2.5-4---6-7---11-12--| |
C--------11----------11--------16--------16------------9-------9--2.5-4----------------| |
A-------------------------------------------------------------------------------12-11--| |
G-----------11----11--------------16--------16-----------9---9----2.5-4---6-8----------| |
E--10-11-------11--------15-16-------16--------16--8-9-----9---------------------------| |
C--------------------------------------------------------------------------------------| |


[This message was edited by Jesse Pearson on 02 February 2004 at 03:53 PM.]

Jesse Pearson
Member

From: San Diego , CA

posted 30 January 2004 07:24 AM     profile     
Here's the lyrics to the vocal version of "Steel Guitar Rag".


Been runnin' around, seen many a town.
So maybe you'll find I'm the kind of guy to brag.
But listen to me and see if you don't agree,
no melody rolls like that STEEL GUITAR RAG.
And when they slide that thing along the strings,
it sounds so dog-gone heavenly,
You hear the angels sing an' when you start your feet,
your heart will beat the rhythm to that STEEL GUITAR RAG.

You may be kinda choosy 'bout the kind of songs you hear.
You may like songs that's bluesy so you cry right in your beer.
But if you like a tune that's bound to drive away your care,
make happy your soul with that STEEL GUITAR RAG.

Michael Johnstone
Member

From: Sylmar,Ca. USA

posted 30 January 2004 08:44 AM     profile     
Before Leon got a hold of it,it was an old tune called "Buttermilk Rag" which probably dates back at least to the 20s. "Old Buttermilk Raaag - Old Buttermilk Raaag....."

All times are Pacific (US)

next newest topic | next oldest topic

Administrative Options: Close Topic | Archive/Move | Delete Topic
Post New Topic  
Hop to:

Contact Us | Catalog of Pedal Steel Music Products

Note: Messages not explicitly copyrighted are in the Public Domain.


Ultimate Bulletin Board 5.46

For lots more steel guitar tab, visit
Rebel�, Ricky and Jeff's MP3 Audio Clips And Tab