Steel Guitar Strings
Strings & instruction for lap steel, Hawaiian & pedal steel guitars
http://SteelGuitarShopper.com
Ray Price Shuffles
Classic country shuffle styles for Band-in-a-Box, by BIAB guru Jim Baron.
http://steelguitarmusic.com

This Forum is CLOSED.
Go to bb.steelguitarforum.com to read and post new messages.


  The Steel Guitar Forum
  Tablature
  Aint Misbehavin six or eight string C6th

Post New Topic  
your profile | join | preferences | help | search

next newest topic | next oldest topic
Author Topic:   Aint Misbehavin six or eight string C6th
Ed Baker
Member

From: Massachusetts, USA

posted 10 April 2005 07:06 AM     profile     
Ain t Misbehaving
Ed Baker
A C E G A C E G
TablEdited by Ed Baker

| | | | Bb | Bdim |
|--------------------------------|--------------------------------|
|--------------------------------|--------------------------------|
|--------------------------------|----------------5---5-----------|
|--------------------------------|--------3-------5---5-----------|
|--------------------------------|----3-------3-------------------|
|--------------------------------|--------------------------------|
|--------------------------------|--------------------------------|
|--------------------------------|--------------------------------|

Cm7 | Dbdim | Bb | Bb+ |
|--------------------------------|--------------------------------|
|--------------------------------|--------------------------------|
|------------7-------------------|----------------10--10----------|
|----5-------7-------------------|--------10------10--10------14--|
|5-------5-----------------------|----10------10------------------|
|--------------------------------|--------------------------------|
|--------------------------------|--------------------------------|
|--------------------------------|--------------------------------|

Eb | Ebm | Bb | G7 |
|--------------------------------|--------------------------------|
|--------------------------------|--------------------------------|
|--------------------------------|------------5-------------------|
|15------------------------------|----3-------5---------------9---|
|----15--------------------------|3-------3-----------------------|
|--------15----------------------|--------------------------------|
|------------15--14--12----------|--------------------------------|
|--------------------------------|--------------------------------|

Cm7 | F7 | Bb | | |
|--------------------------------|----------------10--------------|
|--------------------------------|----------------10--------------|
|--------------------------------|--------------------------------|
|10--10--------------10----------|--------------------------------|
|----------------10------10------|--------------------------------|
|----------------------------10--|--------------------------------|
|10--10----------------------10--|--------------------------------|
|--------------------------------|--------------------------------|

| | | | Bb | Bdim |
|3---------------5---------------|--------------------------------|
|3-------------------------------|--------------------------------|
|----------------5---------------|----------------5---5-----------|
|--------------------------------|--------3-------5---5-----------|
|--------------------------------|----3-------3-------------------|
|--------------------------------|--------------------------------|
|--------------------------------|--------------------------------|
|--------------------------------|--------------------------------|

Cm7 | Dbdim | Bb | D7+ |
|--------------------------------|--------------------------------|
|--------------------------------|--------------------------------|
|------------7-------------------|----------------10--10----------|
|----5-------7-------------------|--------10------10--10------14--|
|5-------5-----------------------|----10------10------------------|
|--------------------------------|--------------------------------|
|--------------------------------|--------------------------------|
|--------------------------------|--------------------------------|

Eb | Ebm | Bb | G7 |
|--------------------------------|--------------------------------|
|--------------------------------|--------------------------------|
|--------------------------------|------------5---------------6---|
|15------------------------------|----3-------5-------------------|
|----15--------------------------|3-------3-----------------------|
|--------15----------------------|--------------------------------|
|------------15--14--12----------|--------------------------------|
|--------------------------------|--------------------------------|

Cm7 | F7 | Bb | | |
|--------------------------------|--------------------------------|
|--------------------------------|----------------15--------------|
|--------------------------------|10------------------------------|
|10--10--------------10----------|--------------------------------|
|----------------10------10------|10--------------15--------------|
|--------------------------------|10------------------------------|
|10--10--------------------------|--------------------------------|
|--------------------------------|--------------------------------|

| | | | Gm | | |
|--------------------------------|--------------------------------|
|10--------------5---------------|--------------------------------|
|--------------------------------|----10----------10--------------|
|--------------------------------|------------10------10----------|
|10--------------5---------------|--------------------------------|
|--------------------------------|----10--------------------------|
|--------------------------------|----10--------------------------|
|--------------------------------|--------------------------------|

Eb7 | | | C7 | | |
|--------------------------------|--------------------------------|
|--------------------------------|--------------------------------|
|----10----------10--------------|----10----------10----------11--|
|------------10------10----------|------------10------10------11--|
|--------------------------------|--------------------------------|
|----10--------------------------|----10--------------------------|
|----10--------------------------|----10--------------------------|
|--------------------------------|--------------------------------|

G7 | | | F | Bdim |
|--------------------------------|--------------------------------|
|--------------------------------|--------------------------------|
|--------11----------------------|----12----------12--------------|
|------------10------------------|----12------------------12------|
|--------------------------------|--------------------------------|
|------------10------------------|--------------------------------|
|--------------------------------|--------------------------------|
|--------------------------------|--------------------------------|

Gm | C7 | F7 | G7 |
|--------------------------------|--------------------------------|
|--------------------------------|--------------------------------|
|--------------------------------|--------------------------------|
|----15--------------------------|--------------------------------|
|15------15--14------------------|--------------------------------|
|------------------------15------|13--------------------------14--|
|--------------------------------|--------------------------------|
|--------------------------------|--------------------------------|

C7 | F7 | Bb | Bdim |
|--------------------------------|--------------------------------|
|--------------------------------|--------------------------------|
|--------------------------------|----------------5---5-----------|
|--------------------------------|----------3-----5---5-----------|
|--------------------------------|--------3---3-------------------|
|15------------------------------|--------------------------------|
|--------14--12------------------|--------------------------------|
|--------------------------------|--------------------------------|

Cm7 | Dbdim | Bb | Bb+ |
|--------------------------------|--------------------------------|
|--------------------------------|--------------------------------|
|------------7-------------------|----------------10--10------14--|
|----5-------7-------------------|--------10------10--10----------|
|5-------5-----------------------|----10------10------------------|
|--------------------------------|--------------------------------|
|--------------------------------|--------------------------------|
|--------------------------------|--------------------------------|

Eb | Ebm | Bb | G7 |
|--------------------------------|--------------------------------|
|--------------------------------|--------------------------------|
|--------------------------------|------------5---------------6---|
|15------------------------------|----3-------5-------------------|
|----15--------------------------|3-------3-----------------------|
|--------15----------------------|--------------------------------|
|------------15--14--12----------|--------------------------------|
|--------------------------------|--------------------------------|

Cm7 | F7 | Bb | Eb |
|--------------------------------|--------------------------------|
|--------------------------------|--------------------------------|
|----------------------------10--|--------------------------------|
|10--10--------------10----------|--------------------------------|
|----------------10------10--10--|--------------------------------|
|----------------------------10--|----------------6---6-------5---|
|--------------------------------|--------7-----------------------|
|--------------------------------|----8-------8-------------------|

Bb | F7 | Bb | | |
|--------------------------------|--------------------------------|
|--------------------------------|--------------------------------|
|--------------------------------|--------------------------------|
|3-------------------------------|1-------------------------------|
|----3---------------------------|--------------------------------|
|--------3-------------------1---|1-------------------------------|
|------------3---2---------------|--------------------------------|
|--------------------3-----------|1-------------------------------|

Created with TablEdit http://www.tabledit.com/

Ricky Davis
Moderator

From: Spring, Texas USA

posted 10 April 2005 09:10 AM     profile     
Sorry I didn't notice the chord placement problem until now> here it is fixed.
===============================
Ain t Misbehaving
Ed Baker
A C E G A C E G
TablEdited by Ed Baker

| | | | Bb | Bdim |
|--------------------------------|--------------------------------|
|--------------------------------|--------------------------------|
|--------------------------------|----------------5---5-----------|
|--------------------------------|--------3-------5---5-----------|
|--------------------------------|----3-------3-------------------|
|--------------------------------|--------------------------------|
|--------------------------------|--------------------------------|
|--------------------------------|--------------------------------|

Cm7 | Dbdim | Bb | Bb+ |
|--------------------------------|--------------------------------|
|--------------------------------|--------------------------------|
|------------7-------------------|----------------10--10----------|
|----5-------7-------------------|--------10------10--10------14--|
|5-------5-----------------------|----10------10------------------|
|--------------------------------|--------------------------------|
|--------------------------------|--------------------------------|
|--------------------------------|--------------------------------|

Eb | Ebm | Bb | G7 |
|--------------------------------|--------------------------------|
|--------------------------------|--------------------------------|
|--------------------------------|------------5-------------------|
|15------------------------------|----3-------5---------------9---|
|----15--------------------------|3-------3-----------------------|
|--------15----------------------|--------------------------------|
|------------15--14--12----------|--------------------------------|
|--------------------------------|--------------------------------|

Cm7 | F7 | Bb | | |
|--------------------------------|----------------10--------------|
|--------------------------------|----------------10--------------|
|--------------------------------|--------------------------------|
|10--10--------------10----------|--------------------------------|
|----------------10------10------|--------------------------------|
|----------------------------10--|--------------------------------|
|10--10----------------------10--|--------------------------------|
|--------------------------------|--------------------------------|

| | | | Bb | Bdim |
|3---------------5---------------|--------------------------------|
|3-------------------------------|--------------------------------|
|----------------5---------------|----------------5---5-----------|
|--------------------------------|--------3-------5---5-----------|
|--------------------------------|----3-------3-------------------|
|--------------------------------|--------------------------------|
|--------------------------------|--------------------------------|
|--------------------------------|--------------------------------|

Cm7 | Dbdim | Bb | D7+ |
|--------------------------------|--------------------------------|
|--------------------------------|--------------------------------|
|------------7-------------------|----------------10--10----------|
|----5-------7-------------------|--------10------10--10------14--|
|5-------5-----------------------|----10------10------------------|
|--------------------------------|--------------------------------|
|--------------------------------|--------------------------------|
|--------------------------------|--------------------------------|

Eb | Ebm | Bb | G7 |
|--------------------------------|--------------------------------|
|--------------------------------|--------------------------------|
|--------------------------------|------------5---------------6---|
|15------------------------------|----3-------5-------------------|
|----15--------------------------|3-------3-----------------------|
|--------15----------------------|--------------------------------|
|------------15--14--12----------|--------------------------------|
|--------------------------------|--------------------------------|

Cm7 | F7 | Bb | | |
|--------------------------------|--------------------------------|
|--------------------------------|----------------15--------------|
|--------------------------------|10------------------------------|
|10--10--------------10----------|--------------------------------|
|----------------10------10------|10--------------15--------------|
|--------------------------------|10------------------------------|
|10--10--------------------------|--------------------------------|
|--------------------------------|--------------------------------|

| | | | Gm | | |
|--------------------------------|--------------------------------|
|10--------------5---------------|--------------------------------|
|--------------------------------|----10----------10--------------|
|--------------------------------|------------10------10----------|
|10--------------5---------------|--------------------------------|
|--------------------------------|----10--------------------------|
|--------------------------------|----10--------------------------|
|--------------------------------|--------------------------------|

Eb7 | | | C7 | | |
|--------------------------------|--------------------------------|
|--------------------------------|--------------------------------|
|----10----------10--------------|----10----------10----------11--|
|------------10------10----------|------------10------10------11--|
|--------------------------------|--------------------------------|
|----10--------------------------|----10--------------------------|
|----10--------------------------|----10--------------------------|
|--------------------------------|--------------------------------|

G7 | | | F | Bdim |
|--------------------------------|--------------------------------|
|--------------------------------|--------------------------------|
|--------11----------------------|----12----------12--------------|
|------------10------------------|----12------------------12------|
|--------------------------------|--------------------------------|
|------------10------------------|--------------------------------|
|--------------------------------|--------------------------------|
|--------------------------------|--------------------------------|

Gm | C7 | F7 | G7 |
|--------------------------------|--------------------------------|
|--------------------------------|--------------------------------|
|--------------------------------|--------------------------------|
|----15--------------------------|--------------------------------|
|15------15--14------------------|--------------------------------|
|------------------------15------|13--------------------------14--|
|--------------------------------|--------------------------------|
|--------------------------------|--------------------------------|

C7 | F7 | Bb | Bdim |
|--------------------------------|--------------------------------|
|--------------------------------|--------------------------------|
|--------------------------------|----------------5---5-----------|
|--------------------------------|----------3-----5---5-----------|
|--------------------------------|--------3---3-------------------|
|15------------------------------|--------------------------------|
|--------14--12------------------|--------------------------------|
|--------------------------------|--------------------------------|

Cm7 | Dbdim | Bb | Bb+ |
|--------------------------------|--------------------------------|
|--------------------------------|--------------------------------|
|------------7-------------------|----------------10--10------14--|
|----5-------7-------------------|--------10------10--10----------|
|5-------5-----------------------|----10------10------------------|
|--------------------------------|--------------------------------|
|--------------------------------|--------------------------------|
|--------------------------------|--------------------------------|

Eb | Ebm | Bb | G7 |
|--------------------------------|--------------------------------|
|--------------------------------|--------------------------------|
|--------------------------------|------------5---------------6---|
|15------------------------------|----3-------5-------------------|
|----15--------------------------|3-------3-----------------------|
|--------15----------------------|--------------------------------|
|------------15--14--12----------|--------------------------------|
|--------------------------------|--------------------------------|

Cm7 | F7 | Bb | Eb |
|--------------------------------|--------------------------------|
|--------------------------------|--------------------------------|
|----------------------------10--|--------------------------------|
|10--10--------------10----------|--------------------------------|
|----------------10------10--10--|--------------------------------|
|----------------------------10--|----------------6---6-------5---|
|--------------------------------|--------7-----------------------|
|--------------------------------|----8-------8-------------------|

Bb | F7 | Bb | | |
|--------------------------------|--------------------------------|
|--------------------------------|--------------------------------|
|--------------------------------|--------------------------------|
|3-------------------------------|1-------------------------------|
|----3---------------------------|--------------------------------|
|--------3-------------------1---|1-------------------------------|
|------------3---2---------------|--------------------------------|
|--------------------3-----------|1-------------------------------|

[This message was edited by Ricky Davis on 10 April 2005 at 08:08 PM.]

Roy Thomson
Member

From: Wolfville, Nova Scotia,Canada

posted 10 April 2005 09:39 AM     profile     
Ed,
Just as a matter of interest, that does not
look like Tabledit? Did you convert it to text and if so how?
Great to have the tune and I look forward to trying it. I note the chords are all off to the left?
I am not being critical. Far from it. I like what you have done here and wish to commend you on a great job!
Thanks,
Roy

[This message was edited by Roy Thomson on 10 April 2005 at 09:39 AM.]

Ed Baker
Member

From: Massachusetts, USA

posted 10 April 2005 11:30 AM     profile     
Fixed it Above.
Ricky

[This message was edited by Ricky Davis on 10 April 2005 at 08:09 PM.]

All times are Pacific (US)

next newest topic | next oldest topic

Administrative Options: Close Topic | Archive/Move | Delete Topic
Post New Topic  
Hop to:

Contact Us | Catalog of Pedal Steel Music Products

Note: Messages not explicitly copyrighted are in the Public Domain.


Ultimate Bulletin Board 5.46

For lots more steel guitar tab, visit
Rebel�, Ricky and Jeff's MP3 Audio Clips And Tab